Search This Blog

Loading...
Loading...

Facebook Share

Malayalam Guitar Tabs


Film - Nammal
Music -Vidhya saagar
Tabs by Akhil c nair
                                Sughamaanee Nilaavu Guitar Tab

Sukhmaanee nilaavu enthu
b- ----------------------------3---78-----
e- 5—7----57----3---35---2---5---------

sukhamaanee kaattu..
b- -----------------------------------------
e- 5—7----57----3---35------2-3-------- [repeat]

Arikil nee varumbol enthu
b- ----------------------------3---78-----
e- 5—7----57----3---35---2---5---------

sukhamanee sandhya …
b- -----------------------------------------
e- 5—7----57----3---35------2-3--------

Poonchirakil parannuyaraam..
b- 7----8-8---10---10-10----------------
e- -------------------------7-7---5--------

kuliralayil nananjaliyaam…..
b- 7----8-8---10---10-10----------------
e- -------------------------7-7---5--------

Azhakeee..haaaiii……….
b- -----------------------------------------
e- 5-7-10-------7-9-7---5-7-5----3------
                                                      (Sukhamanee nilaavu)
  
Idavazhiyil naamaadyam kandappol kusruthiyumaay maranjavale
  b- -----------------------------------------
  e- 5-7---5-7---7—7—5-7---5-7-----3---
  
  Chirichudanjoo nin karivalakal veruthe nee pinangi ninnooo 
  b- 3-5---5---------------------------------
  e- ----3----3-3-3-5-----8---7-5-3--------
  
  Aaa nimisham….
  b- 8---12----------------------------------
  e- --------12---10----12-10---12-10-----

priyanimisham…..
b- 8-8—12---------------------------------
e- ---------12---10---12-10---12-10------

azhakeeee haa..aaa
 b- -----------------------------------------
 e- 5-7-10-------7-9-7---5-7-5----3------
                                                        (Sukhamanee nilaavu) 
   
  Ormmayile poo kkani kothumbu..ponthuzhayaal thuzhanjavalee 
   b- -----------------------------------------
   e- 5-7---5-7---7—7—5-7---5-7-----3---
  
Evide ninno en priya rahasyam pakuthedukkananjavane
     b- 3-5---5---------------------------------
  e- ----3----3-3-3-5-----8---7-5-3--------

Enikkuvenam eee …
     b- 8---12----------------------------------
     e- --------12---10----12-10---12-10-----

kanimanassu…
 b- 8-8—12---------------------------------
 e- ---------12---10---12-10---12-10------

 azhakeee..haaa..aaa├»
 b- -----------------------------------------
 e- 5-7-10-------7-9-7---5-7-5----3------
                                                        (Sukhamanee nilaavu) 


pls post u r valuable comments...........

                             Tumbi vaa Tumbakudathil



Thumpi va thumpakkudathin

d- -----------------------7---------------
g- 7-------7----7—6--------------------
b- ---5-6----5---------------------------
e- ----------------------------------------

Thunjathayi oonjalidam
d - ---------------------------------------
g- 7---------7-------6-7-----------------
b- ---5—6-----5-------------------------
e- ----------------------------------------

Aakasha ponnalin ilakalil
g-  ---------------------7-6-7------------
b- 7-7—8-----5-6-5----------5---------
e- ----------------------------------------


Ayathil thotte varam
g- ----------------------------------------
b- 7-7—8-----5-8-----6-5-5-----------
e- ----------------------------------------

La..la..la..la..la..

                                                    (thumpi)

manthrathal paayunna kuthiraye
g- ---------------------------------------
b- 8-8-----8--------8-7-5--------------
e-  ------5---5-8-5----------------------

manikya kayyal thodam
g- ---------------------------------------
b- 8-8----8-----------------------------
e-  -----5----5-8-5---------------------

gandharvvan padunna mathilakam
g- ---------------------------------------
b- 8-------8-----------------------------
e- ---5-8-----58---8-9----9-10--------

mandharam poovitta thanalil
g- ----------------------------------------
b- 8-------8------------------------------
e- ---5-8-----5-8-------10--------------

oonjaale padaamoo
g- ----------------------------------------
b- ----------------------------------------
e- 7-8-----10-----7-8-----11-----------
manathe mamante thalikayil
g- -----------------------------------------
b- ---------------------------------10-9--
e- 9—10----8----7-8-7------6-5--------

maamunnan pokaamo namukkini
g- -----------------------9-----------------
b---------7-8----8-7-5--------------------
e- 5-6-5------5----------------------------
                                                    (thumpi)




                                  Kizhakku Pookkum (Anwar)





Kizhaku pookum murikinentoru

b- 9-10-10—10—12-10---9-9-9-9-9----7--
e- ------------------------------------------------
chokachokapane
b- 9-10-10-10--12-10—9---------------------
e- -------------------------------------------------

putukapennin kavilinentoru
b- 9-10-10—10—12-10---9-9-9-9-9----7--
e- ------------------------------------------------
tudutudupane
b- 9-10-10-10—14-12—9--------------------
e- ------------------------------------------------
enik nenjin karikkumayi parannu vanoru maran
e- -----------------------------------------------------------------------
b- 9-9-10—9—7—3-3-5—5-5—5-9-7--9-12-12--13-12-10---

tudikum kannin kanavumayi piranu vanoru tozhan
e- -----------------------------------------------------------------------
b- 9-9-10—9—7—3-3-5—5-5—5-9-7--9-12-12--13-12-10---

                                                                                        (Kizhakku pookum)



          Vandhanam Theme In Accoustic Guitar


Laa laaa la la laaaaaa…..
g- ----------------------------
b- 5----7---8-7-----57------
e- ----------------------------

Laa laaa la la laaaaaa…..

g- ----------------------------
b- 5----7---8-7-----57------
e- ----------------------------

La la laaa  laaa aa aa…..

g- ------7---5----5-8---------
b- 8-6-----------------5---5---
e- ------------------------------

Laa laa aa aa aaaaaa…….
g- ------------------------------------
b-5—4-------------------------------
e- -------7-7---5---7---3—3-5-2---

Laaa laaa la laaaa aaa…..
g- -----------------------------------
b- -----------------------------------
e- -5—5-----3----------------------

This Tabs Preapared by My own style so hope all will enjoy th Tab.....



Enikk Paadanoru Paattilundoru Pennu(Film-Ivar Vivaahitharaayaal)






g- 9-8-9--------------------------9-8-9-----------------
b- --------8-8-8-8----7-8---7-----------7--------------
e- ---------------------------------------------------------


g- 9---------------------------------------------------------
b- ---8-10----------10-------------------10-9-10-------
e- -----------7-7-7--------7-10---8-7-------------------

g- -----------------------------------------------------------
b- 10----10-8----8-10-----8—7—7—7-8---7-8-----
e-  ----7-------------------------------------------------9--





                            Nee madhu pakaroo 

“Nee madhu pakaroo”, song from the movie “Moodal Manju” directed by Sudhin Menon. P Bhaskaran wrote the lyrics and Usha Khanna composed the music. She composed so many songs in Hindi, and all were great hits. This song sung by her favorite singer Dr. KJ Yesudas. 




Nee madhu pakaroo..malar choriyoo

g- --7-7-------9---7-7------9---
b- 7----7-7-------------7-7-----
e- --------------------------------

Anuraaga pournamiye
g- 9-9---9----------9-------------
b- ---------10-8-7----7-8-7------
e- ----------------------------------

Nee maayalle....marayalle.... neela nilaavoliye
g- ---------------------------------------------9-8-7--
b- 10------------10-10-10-10-----8-8-8-8----------
e-  ---11-11-11----------------------------------------
                                             (Nee Madhu pakaruu)
Manivilakkuvenda 
g-  -----------------------------------
b- 8-7----8--------------------------
e-  ----------10-10-10--------------

mukil kaanenda
g- --------------------------------
b- 8-7-8--------------------------
e- -------10-10---12—9--------

ee prema sallapam
g- --------------------------------------------------
b- 7-8—10----------------------------------------
e- ----------10---9-7---10---9-7---7-10-7-10—

First BGM


g- -----9---------------9---------
b- 8-----8-7-----8-8-----8-7---
e- ---------------------------------

d- --------------7-9---------------
g- -------9-7-6------6—9—7---
b- 10-7----------------------------
e- ----------------------------------

Manivilakkuvenda mukil kaanenda
g- --------------------------------------------------------
b- --------------------------------------------------------
e- 10—9---7-10-10-10---10-9—7-7---10-10-10---




ee prema sallapam
g- -----------------------------------------------
b- -----------------------------------------------
e- 10-9—7—10-10—9-9—12-12—9------

Kali paranjirikke kili thudangiyallo
sallapa sangeetham

g- -----------------------------------------------
b- ---------10------------------10-10----------
e- 9-9---7-----9-9-9---9---7---------9-9-9---


Iru karalukalil virunnu vannu
maayatha madhumaasam

g- --------------------------------------------
b- ----------------------10----10—8—7---
e- 9---7-7—10—9-7-----7----------------
                             

Nee maayalle....marayalle.... neela nilaavoliye
g- ---------------------------------------------9-8-7--
b- 10------------10-10-10-10-----8-8-8-8----------
e-  ---11-11-11----------------------------------------



( Nee Madhu Pakaruu)