Search This Blog

Loading...
Loading...

Facebook Share

Tamil Guitar Tabs and Chords

Bombay Uyire Uyire Guitar Tab By Akhil c nair

uyirae uyirae .. vandhu ennoadu kalandhuvidu

e-7-7-9—7-7-9—7-9—10-12—10—9—7-7-7-5-4--
b- -----------------------------------------------------------
uyirae uyirae ennai unnoadu kalandhuvidu
e-7-7-9—7-7-9—7-9—10-12—10—9—7-7-7-5-4--
b- -----------------------------------------------------------
ninaivae ninaivae endhan nenjoadu kalandhuvidu

e -4-7--5--7-7—5-4-0-0—2-5—5-5—7-5-4-2-0-
b – ------------------------------------------------------

nilavae nilavae indha vinnoadu kalandhuvidu
e -4-7--5--7-7—5-4-0-0—2-5—5-5—7-5-4-2-0-
b – ------------------------------------------------------

kaadhal irundhaal endhan kannoadu kalandhuvidu
e-12-10—12---12-10—12-9-9-9—9-10-12-14-12-9-7-7-7-
b- ------------------------------------------------------------------
kaalam thaduththaal ennai mannoadu kalandhuvidu
e-12-10—12---12-10—12-9-9-9—9-10-12-14-12-9-7-7-7-
b- ------------------------------------------------------------------ [Uyire]

en suvaasak kaatru varumpaadhai paarththu uyirthaangi naaniruppaen
e-5-5-7---12-10-7—5—7-7---5-7-0---5-7—12-10—7-7-7----
b - ---------------------------------------------------------------------

malarkonda penmai vaaradhu poanaal malaimeedhu theekkulippaen
e-5-5-7---12-10-7—5—7-7---5-7-0---5-7—12-10—7-7-7----
b - ---------------------------------------------------------------------

en uyir poagum poanaalum thuyarillai pennae adharkaagavaa paadinaen
e-7-8—8---14-14—12-14-14—12-14-14---14-12-8-7—7-8—12-14-17—16-14-14-
b- -------------------------------------------------------------------------------------------------

varum edhirkaalam un meedhu pazhipoadum pennae adharkaagaththaan vaadinaen
e-7-8—8---14-14—12-14-14—12-14-14---14-12-8-7—7-8—12-14-17—16-14-14-
b- -------------------------------------------------------------------------------------------------
mudhalaa mudivaa adhai un kaiyil koduththuvittaen
e-12-12---9---12-12---8---5-5—5—7-12—8-7-5-4-2-
b- ------------------------------------------------------------ [Uyire]
Repeat Again…This is the tab for the song Uyire Uyire….
I hope all will enjoy….please post u r valuable comments….follow me on my blogger




Etho oru paattu - unnidathil ennai koduthen


g- 12--------------12---------------12-----------12-10-
b- ----11—10-11----11---10-11-----11—10---------
e- ----------------------------------------------------------

g- 10---12---10---12----10------------------12-12----------
b- ---10---10---10---10-----11—10-11-10--------11------
e- ----------------------------------------------------------10—

g- 12-12--------------------------10-10-------------------------
b- -------10-----13-13-13---13--------10-13-13-11-11-11--
e- ----------9-9---------------------------------------------------

g- 12-12--------------------------10-10-----------------------------12-10--
b- -------10-----13-13-13---13--------10-13-13-11-11-11-10-----------
e- ------------9-9---------------------------------------------------------------

g- 10-12--------12-12-12-----12------10-12---------12-12-12—11-----
b- -------11-10-------------10-----10----------11-10------------------10--
e- -------------------------------------------------------------------------------


Movie Name : Deepavali
Song: Pogadhe
Music Director : Yuvan Shankar Raja


Pogathe Pogathe… nee irundhal nan iruppen…
E C#m B E

pogathe pogathe… nee pirindhal nan erappen
E C#m B E

unnodu vazhndha kalangal yaavum kanavai ennai moodudhadi..
C#m C#m F#m Ab C#m

yaarendru neeyum ennai paarkumbothu…uyire uyir pogudhadi…
C#m C#m F#m Ab C#m

kallarail kooda jannal ondru vaithu.. undhan mugam paarpenadi… (Pogathe)…
F#m Abm A B

Pogadhe.......

Pogadhe.......

Kalaindhalum megam athu meendum midhakkum…
E Eb Abm

adhu pola thane undhan kadhal enakkum…
E Eb Abm

nadaipadhai vilakka kadhal, vidindha udan anaipadharku..
E C#m Abm E

neruppalum mudiyadhamma ninaivugalai azhipadharku..
E C#m Abm E

unakkaga kathiruppen.. oh oh.. uirodu parthiruppen… oh oh (Pogathe)
E Abm C#m E Abm C#m

azhagana neram adhai nee than koduthai..
E Eb Abm

azhiyadha sogam adhaiyum nee than koduthai..
E Eb Abm

kan thoongum neram parthu kadavul vandhu ponadhu pol..
E C#m Abm E

en vazhvil vandhe ponai… yematram thangalaye…
E C#m Abm E

penne nee illamal… boologam iruttidhthe.. (Pogathe)
E Abm C#m E Abm C#m


                      Hossanna(Vinaithaandi Varuvaayaa)

Yen idhayam 

g- -------------------------------------------
b- -------------------------------------------
e- 910-10-10-10--9-12---10--10--10--10--

udaithaai norungavey
g- -------------------------------------------
b- -------------------------------------------
e-7-9-10--5-3--5-7--9----------------------


en maruidhayam tharuven nee udaikave

g- ----------------------------------------
b- ----------------------------------------
e- 9--10-10-10---9-12--14-12-----10---


 tharuven nee udaikave

g- ----------------------------------------
b- ----------------5----------------------
e- 9-7---5--3-2-3-----------------------


Hoooo .... hosanna hosanna

b- ------------------------------------------------------------------------
e- 10-12-10---8-8-8--5-3--5-8--8-8-----5-3-5--8-8-8---5-3-3--

Hoooo .... hosanna hosanna
b- ------------------------------------------------------------------------
e- 10-12-10---8-8-8--5-3--5-8--8-8-----5-3-5--8-8-8---5-3-3--


Andha neram andhi neram kanpaarthu kanhdalagi ponaneram edho aache

b- -----------------------------------------------------
e- 710-10-7-555-333-5--7--10--7-7-7-10-----

Oh vaanam thendi vanhdachu appavin thittuellam kaatrodu poye poche

b- -------------------------------------------------
e- 710-10-7-555-333-5-7--10--7-9-7--5---

Hosanna en vaasal thandi ponaale

b- --------------------------------------------------
e- 3-5-3------3-5-3------------------7-----------


Hosanna verondrum seiyamale

b- ----------------------------------------------------
e- 3-5-5------5-7-5------------------3-------------



nan aadi pogriren
sookunoorakiren
aval pona pinbu endhan nejai thedipogiren

b- -------------------------------------------------
e- 7-3--7-3--75-75-75-75-75-75-75---10--

Ho ...sanna ...

b- --------------------------
e- 3--5--7-----------------


Vazhvukum pakkam vandhen
b- -------------------------
e - 33-5-7-5-77--------

savumkum pakkam nindren 


b- -----------------------------
e- 3-5-7--7-5-7--3----------
-

                                    Kaadhal Rojaave



g- 9--------9---8---------
b- ----8—7—7----------
e- -------------------------
                                [Repeat]
g- 9---9--------------------
b- ---9—9---10----------8---7---
e- -----------------8-7------

g- -------------------------------
b- ----9-9----10—8-7---
e- --------------------------------

g- ---------------------------------
b- 9-9---10------8—7-----------
e- -----------8-7------------------

g- 9-----------------------------------------
b- --7-8-7---10----------------------------
e- -----------------7-8-7---710---1012---

g- --------------------------------------------------
b- 9-9-9-9----7-10-9----9-9---10---------------
e- -------------------------------------7—8-7-7—

g- -------------------------------------------------------
b- 9-10-----------------------------------------10-10--
e- ------7---12—12—7-7—7-9-10—9—7---------

g- ---------------------------------------------------
b- 9-9---10-----8—7-7----------------------------
e- ------------7--------------------------------------
          (am plyd the song using this tab just click to listn http://www.muziboo.com/akkz/music/kaadhal-roja-in-accoustic-guitar-by-akhil-c-nair/)