Malayalam Guitar Tabs and Chords


JAMES AND ALICE - Mazhaye Mazhaye

                                    
 
Scale: F Minor
Time Signature: 4/4
Tempo: 82
Suggested Strumming: DU,DU,DU,DU
c h o r d z o n e . o r g
[INTRO] Fm Bbm C# Eb C x4
[CHORUS]
Fm        Bbm          C#   Eb  C
Mazhaye mazhaye mazhaye, mazhaye
Fm        Bbm                C#  C
Manassil mashiyaai uthirum nirame
   Ab         Bbm      F7          Bbm  C
Uyirin thoolikayil nirayum pen nirame
Fm       Cm                      C#    Eb
Nee vel praavai paadum nee nirame nirame
Ab     Abmaj7              Csus4
Neerum novil pulkum then nirame
www.chordzone.org
[CHORUS]
Fm        Bbm          C#   Eb  C
Mazhaye mazhaye mazhaye, mazhaye
Fm        Bbm                C#  C
Manassil mashiyaai uthirum nirame

[INSTRUMENTAL] Fm Bbm C# Eb C x4

[VERSE]
Cm                 C#       Eb
Vathil chillil pularmanju pole
F7      Bbm      Eb       
Etho swapnam punarninnu melle
C#                       Eb     Fm
Viralum viralum pathiye cherunna neram
F#                         Fm
Ulayum mizhiyal njodiyil thenni maari enthe

[CHORUS]
Fm        Bbm          C#   Eb  C
Mazhaye mazhaye mazhaye, mazhaye
Fm        Bbm                C#  C
Manassil mashiyaai uthirum nirame

[INSTRUMENTAL] Fm Bbm C# Eb C x4
[INSTRUMENTAL] Ab Eb Fm C x2

[VERSE]
Cm           C#         Eb
Aaro chaayam kudanjitta pole
F7      Bbm     Eb
Neeyen thaalil padarneriyille
C#                            Cm
Nadhiyum nadiyum kadalaai maarunna ravil
F#                           Fm
Ini nin vidarum mizhiyil njaan arinjithenne

[CHORUS]
Fm        Bbm          C#   Eb  C
Mazhaye mazhaye mazhaye, mazhaye
Fm        Bbm                C#  C
Manassil mashiyaai uthirum nirame
   Ab         Bbm      F7          Bbm  C
Uyirin thoolikayil nirayum pen nirame
Fm       Cm                      C#    Eb
Nee vel praavai paadum nee nirame nirame
Ab     Abmaj7              Csus4
Neerum novil pulkum then nirame
www.chordzone.org
[CHORUS]
Fm        Bbm          C#   Eb  C
Mazhaye mazhaye mazhaye, mazhaye
Fm        Bbm                C#  C
Manassil mashiyaai uthirum nirame
 
 
 
 
 
 


Pathivayi Njan – Premam

Guitar chords/tabs for the song Pathivaayi Njan from the movie Premam.
Song: Pathivayi Njan
Movie: Premam
Singer: Shabareesh Varma
Music: Rajesh Murugeshan

Intro
/ - Slide

E--------0--3--3/5---3---------|
B---1/3------------------------|   
G------------------------------|    x 2 Times
D------------------------------|
A------------------------------|
E------------------------------|

E-------3--7--7/8---7----------|
B--3/5-------------------------|   
G------------------------------|
D------------------------------|
A------------------------------|
E------------------------------|

E--------0--3--3/5---7/5--3----|
B---1/3------------------------|   
G------------------------------|
D------------------------------|
A------------------------------|
E------------------------------|

C                                                  G
Pathivaayi njan avale kaanaan pokaarunde
C                                                G
Pathivottum thettaathe njaan kaanaarunde
Dm                                      Am
Palanaalaai ullilothukkiya novaanenne
F                                         G
Parayaathini vayya nenjil theeyaanenne

G                                               D
Thirayilakana mizhiyoru arali poovanenne
G                                                   D
Madanappoo chendu virinjathu polanenne
C                                                 D
Madhurappathinezhilurukkiya ponnanenne
C                                                D
Mazhavillu varachathu poloru pennanenne

G                                               D
Thirayilakana mizhiyoru arali poovanenne
G                                                   D
Madanappoo chendu virinjathu polanenne
C                                                 D
Madhurappathinezhilurukkiya ponnanenne (avalude)
C                                                     G
Manimaaril chernnu mayangaan kothiyanenne

(Repeat same chords)
Pathivayi njan avale kaanaan pokaarunde
Pathivottum thettaathe njan kaanaarunde
Palanaalaai ullilothukkiya novaanenne
Parayaathini vayya nenjil theeyaanenne
Palavazhikalumadavukal palathum paazhaayenne (paazhaayenne)
Orupaanamudangaanennum koodaarunde (koodaarunde)
Kanivottum kittaathe njan karayaarunde
Gathikettittavalude purake alayaarunde
Palavazhikalumadavukal palathum paazhaayenne
Orupaanamudangaanennum koodaarunde
Kanivottum kittaathe njan karayarunde
Kalikaalam allaathendhu parayaanenne



 

 









Song: Mukkathe Penne
Movie: Ennu Ninte Moideen
Singer: Mohammad Maqbool Mansoor
Music: Gopi Sundar


Pluck the strings of the chords..
Gm                 D
Ennile ellinnaal padacha penne
Cm                            D
Mukkathe mannilaayi piranna penne
Gm     D          Cm         F
Ennile roohinte pakuthiyalle..
D        Cm               A#
Ennile nooraayi nee niranjathalle

D#       Cm
Ennile velichavum neeye..
D                                    A#
Muthaayi nee minnana maalayalle

Play the chords in brackets with just one Downstroke..
Gm      Cm     [Cm]    [A#]   [F]
Ennile ishkinte noore
            [Cm]        D 
Aarum kaanaa oliyum neeye

Strum DD U D U
A#      Cm          Gm
Ente kithaabile penne
A#      Cm          Gm
Ente kithaabile penne












 Song: Ethu Kari Raavilum
Movie: Bangalore Days
Singers: Haricharan
Music Director: Gopi Sundar

Capo 3rd fret
Em              Am
Aethu kari raavilum
C                                        D             Bm
Oru cheru kasavezhathunnum kiranamey
Em               Am
Ee hridaya vathilin
C                                  D            Em
Pazhuthilumozhuki varooo..

Em                      Am
Arikilee puthu mandaramay
C                   D
Vidaru nee..
Em                          Am
Unaruvaan kothi thonnunnoree

C               Am
Pulariyil..

B                   Am                           C            Bm
Anhengo nin pon peeli minnunnuvo..
B                   Am                           C
Athilonnente nenjchoram eyyunnuvo

Bm
Urarnnhu njaan..

(Aethu kari raavilum..)

———-
E           G#m                                  A
Neeyam athmavin sankalpaminningane
B
Mindathe mindunnath
E            G#m                          A                 B
entho orkkathirunnappol ennullil nee vannu

C                                  D                 Am       Em
Thirasheela mattumoramma polave.. Sakhi…
Am                        D                  B
Oru naalamaayi poothulanju nee
Em
Ninnenthinoo..

Em                   Am
Arikile puthu mandaramay
C                 D
Vidaru nee..
Em                        Am
Unaruvan kothi thonnunnoree
C                Am
Pulariyil..
——-
Njanam ekantha sageethaminnangane
Manveena thedunna
Neram padatha pattinte then thulli nee
Thannu
Theli neela vaanileeka
Tharamaay sakhi..
Oru raavil doore ninnu nokki..
Neeyenne..
Oh..ho..
Aethu kari raavilum
Oru cheru kasavezhathunnum kiraname
Ee hridaya vathilin
Pazhuthilumozhuki varoo..
Arikile puthu mandaramay
Vidaru nee..
Unaruvaan kothi thonnunnoree
Pulariyil..
Angengo nin pon peeli minnunnuvoo…
Athilonnente nenjchoram eyyunnuvo..
Urarnnu njaan..














Song: Vaathilil
Movie: Ustad Hotel (2012)
Singers: Haricharan
Music Director: Gopi Sundar

During the intro play the chords given in bold: Strumming: D UUDU
Em                        
Intro tabs:
E-------------------------------|
B-5-7-8-5-7-8-10-5-7-8-5-7-8-10-|
G-------------------------------|
D-------------------------------|
A-------------------------------|
E-------------------------------|
  
B                                                 Em  
Intro tabs:
E---------------------------|
B-4-5-7-4-5-7-4-5-7-7-8-7-5-|
G---------------------------|
D---------------------------|
A---------------------------|
E---------------------------|
Em                                                    B
Vaathilil aa vaathilil kaathorthu nee ninnille
Am         D                Am               Em
Pathiyil paadaathora thenooridum ishalaayi njaan   x2
B                                       Bm               Em
Chenchundil chenchundil chenchundil chernnu     x2
Em           Am         C       Am
Am      C         B            Em
G                 Em              G                     Em
Kaanaanoro vazhi thedi Kaanum neram mizhi moodi
E         A             
Omale ninneelayo
E         C#         A          D
Naanamaayi vazhutheelayo
G
Punnaram..
Em                          C                         B
choriyumalavilaval ilakimariyumoru kadalayi
G
Kinnaram..
Em                          C                         B
parayumazhakilaval ilari iadarumoru mazhayaayi
Em                         Am                          G                           Bm
Kalichiri niravukal kanimalarithalukal vidaruvatharumayilaayi
B                                                           Em
chenchundil chenchundil chenchundil thaane -2
(Vaathilil aa vaathilil )













Song: Malare
Movie: Premam
Singer: Vijay Yesudas
Music: Rajesh Murugeshan

Capo 2nd Fret
Slowly strum once down for each chord..
A                      D                  A                  D
Thelimanam mazhavillin niramaniyum neram
A                   D                E                  A
Niramarnnoru kanavennil theliyunna pole
A                   D                       A                    D
Puzhayoram thazhukunnee thanu neeran kaattum
A               D                     E                    A
Pulakangal izhaneythoru kuzhaloothiya pole

Slowly start strumming DDUDU
E              A                D                  A 
Kulirekum kanavil nee kathiradiya kaalam
E                 A                       D                 A
Manathaaril madhumaasam thaliraadiya neram
E                   A                   D                    A
Akamarukum mayilinakal thuyilunarum kaalam
E                 A                D               A
En akathaaril anuraagam pakarunna yaamam

Strum hard.. ;)
A               D
Azhake… Azhakil theerthoru shilayazhake
F#m        D                               A
Malare.. Ennuyiril vidarum panimalare

A               D             F#m             D
A               D             F#m            A

Slow strum again..
A                 E        F#m
Malare ninne kaanathirunnal
A                                  D                  E
Mizhivekiya niramellam maayunna pole
A                            E             F#m
Alivoden arikathinnanayathirunnal
A                                D                 E
Azhakekiya kanavellam akalunna pole

Strum hard..
A  
Njanente aathmavin aazhathinullil
D                                   E
Athilolamarorumariyaathe sookshicha
A
Thaalangal raagangal eenangalaai
D                         E
Oro oro varnangalai

A                 F#m
Idarunna ennte
A              E
idanenjinullil
A                    F#m                    D                      E
Pranayathin mazhayayi nee pozhiyunnee naalil

A                   F#m
Thalarunnorente
A                       E
thanuthorum ninte
A                  F#m             D
Alathallum pranayathalunarum
E
Malare..

E              A                D                  A 
Kulirekum kanavil nee kathiradiya kaalam
E                 A                       D                 A
Manathaaril madhumaasam thaliraadiya neram
E                   A                   D                    A
Akamarukum mayilinakal thuyilunarum kaalam
E                 A                D               A
En akathaaril anuraagam pakarunna yaamam

A               D
Azhake… Azhakil theerthoru shilayazhake
F#m        D                               A
Malare.. Ennuyiril vidarum panimalare

A               D             F#m             D
A               D             F#m            A






















 D           E 
Chillu ranthal vilakkee

             Bm             E
Chiri nee pozhikkee

             F#m                    E
Ida nenjin manichepponnu niranj

    C#
Chandam Thudikkee


            D             E
Kinnarikaan adukkee
        Bm             E
Ulayum pathukke
             F#m                  E                           
Puthu vellikkolussittente
               C#
Manassilethum ushasse
          A               E              Bm                D
Thennal chilambumaayennee thodunnuvo
         A                 E          Bm                D
Munne varaathoree minnum kinaavukal
C#                                        Bm               E
Kannu chimmum vasantha kaalame
 C#                            Bm            E
Onnu ninne punarnnidaaminee
                D           E 
Chillu ranthal vilakkee
             Bm             E
Chiri nee pozhikkee
             F#m                    E
Ida nenjin manichepponnu niranj
    C#
Chandam Thudikkee
——————
F#                            D            E
Kannedukkaathoraayiram yugam
F#                              D                  C#
Kandirikkaan thonnunnu nin mukham
F#                                D                     E
Maari pol neer peythu thoraathe ninte sneham
F#                                     D                    C#
Athramel innaardramaakunnu ith ente ullam
D                             A                  E
Thoo mulle.. minnaada chaarthunnuvo
C                           F#m
Nee maayalle .. ee pon pular punjiri
——————
                D           E 
Chillu ranthal vilakkee
             Bm             E
Chiri nee pozhikkee
             F#m                    E
Ida nenjin manichepponnu niranj
    C#
Chandam Thudikkee
——————
Repeat above chords..
En manassinulchoodile sadhaa
Manju pole ninnormakal thodum
Kaalamo.. vaathil thurakkumen munnil
Jeevitham inno thalirkum melle melle
Ennullil.. pon peeli neerthunnuvo nee
Munneraan ven paatha neettunnuvo
Chillu Ranthal..







Olanjali Kuruvi - Guitar Notes Solo by Akhil C Nair 



(Malayalam Movie -1983)




 Movie    : 1983 (2014)
Song     : Olanjali Kuruvi
Lyrics   : Hari Narayanan
Music    : Gopi Sunder
Singer(s): P Jayachandran & Vani Jayaram

The whole tab is in 2nd(B) string.


Olanjali   kuruvi
1-1/6-5-8--6-5-6-------------

Ilam kaatil aadi varum nee
1-1--1-1/6--5--8-6-5---6-----

Kootu koodi kinungi
1-1/6-5-8---6-5-6------------

Mizhi peeli melle thazhuki
1-1--1-1/6--5--8--6-5---6----(Slow Intro)


Olanjali   kuruvi
1-1/6-5-8--6-5-6-------------

Ilam kaatil aadi varum nee
1-1--1-1/6--5--8-6-5---6-----

Kootu koodi kinungi
1-1/6-5-8---6-5-6------------

Mizhi peeli melle thazhuki
1-1--1-1/6--5--8--6-5---6----


Naruchiri    naalumani
10-13-15-18--17-15-13-10-----

Poovupol     virinjuvo
10/15-13-10--6-9-9-9/10------

Cheru mashi thandu neetti
10-13-15-18-17-15--13\10-10--

vannaduthu    ninnuvo
10/15-13-10---6-9-9-9/10-----

mani mathuram nunayum
10-8-8-6-10---8-6-10---------

kanavin mazhayiloo..
8-6-10--8-6-10-3-------------

Nanayum njan aadhyamaay
8-6-2---8----8/11-10-6-------


Olanjali   kuruvi
1-1/6-5-8--6-5-6-------------

Ilam kaatil aadi varum nee
1-1--1-1/6--5--8-6-5---6-----

Kootu koodi kinungi
1-1/6-5-8---6-5-6------------

Mizhi peeli melle thazhuki
1-1--1-1/6--5--8--6-5---6----



Vaa… chirakumaay
9/10-9-10-13-10----------------------------

Cheruveyil kilikalaay alayuvaan
9-10-8-3---9-10-8-3---3-6-6/10-8/10\8/10\8-

Poom then mozhikalaal
9----9/10-9-10-13-13/15\13\10--------------

Kurumani kuyilupol kurukuvaan
9-10-8-3-9-10-8-3--3-6-6/10-8/10\8/10\8----


Kalichiriyude     viralaal
13-12-13-12-13-15-13-12-13-----------------

Thodu kuriyidum azhakaay
13-12-13-12-13--15-13-12-13----------------

Cheru kolussinte kilu kilukkathil thaalam
10-8--10-8-10-13-10-8-10-8-10-13--13--10---

Manassil nirayum
8-6-10---8-6-1-----------------------------



Olanjali   kuruvi
1-1/6-5-8--6-5-6-------------

Ilam kaatil aadi varum nee
1-1--1-1/6--5--8-6-5---6-----

Kootu koodi kinungi
1-1/6-5-8---6-5-6------------

Mizhi peeli melle thazhuki
1-1--1-1/6--5--8--6-5---6----



Ee    pulariyil
9/10--9-10-13-10--------------------------

Karukakal thaliridum vazhikalil
9-10-8-3--9-10-8-3---3-6-6/10-8/10\8/10\8-

Nee nin  mizhikalil
9---9/10-9-10-13-13/15\13\10--------------

Ilaveyil thiriyumaay varikayoo..
9-10-8-3-9-10-8-3----3-6-6/10-8/10\8/10\8-


janal azhi  vazhi pakarum
13-12-13-12-13-15-13-12-13----------------

Nanu  nane  oru   madhuram
13-12-13-12-13-15-13-12-13----------------

Oru  kudayude   thanalilanayum  neram
10-8-10-8-10-13-10-8-10-8-10-13-13--10----

Pozhiyum mazhayil
8-6-10---8-6-1----------------------------



Olanjali   kuruvi
1-1/6-5-8--6-5-6-------------

Ilam kaatil aadi varum nee
1-1--1-1/6--5--8-6-5---6-----

Kootu koodi kinungi
1-1/6-5-8---6-5-6------------

Mizhi peeli melle thazhuki
1-1--1-1/6--5--8--6-5---6----


Naruchiri    naalumani
10-13-15-18--17-15-13-10-----

Poovupol     virinjuvo
10/15-13-10--6-9-9-9/10------

Cheru mashi thandu neetti
10-13-15-18-17-15--13\10-10--

vannaduthu    ninnuvo
10/15-13-10---6-9-9-9/10-----

mani mathuram nunayum
10-8-8-6-10---8-6-10---------

kanavin mazhayiloo..
8-6-10--8-6-10-3-------------

Nanayum njan aadhyamaay
8-6-2---8----8/11-10-6-------


Olanjali   kuruvi
1-1/6-5-8--6-5-6-------------

Ilam kaatil aadi varum nee
1-1--1-1/6--5--8-6-5---6-----


Kootu koodi kinungi
1-1/6-5-8---6-5-6------------

Mizhi peeli melle thazhuki
1-1--1-1/6--5--8--6-5---6----
/ - slide up
\ - slide down







                                Sughamaanee Nilaavu Guitar Tab
Film - Nammal
Music -Vidhya saagar
Tabs by Akhil c nair

Sukhmaanee nilaavu enthu
b- ----------------------------3---78-----
e- 5—7----57----3---35---2---5---------

sukhamaanee kaattu..
b- -----------------------------------------
e- 5—7----57----3---35------2-3-------- [repeat]

Arikil nee varumbol enthu
b- ----------------------------3---78-----
e- 5—7----57----3---35---2---5---------

sukhamanee sandhya …
b- -----------------------------------------
e- 5—7----57----3---35------2-3--------

Poonchirakil parannuyaraam..
b- 7----8-8---10---10-10----------------
e- -------------------------7-7---5--------

kuliralayil nananjaliyaam…..
b- 7----8-8---10---10-10----------------
e- -------------------------7-7---5--------

Azhakeee..haaaiii……….
b- -----------------------------------------
e- 5-7-10-------7-9-7---5-7-5----3------
                                                      (Sukhamanee nilaavu)
  
Idavazhiyil naamaadyam kandappol kusruthiyumaay maranjavale
  b- -----------------------------------------
  e- 5-7---5-7---7—7—5-7---5-7-----3---
  
  Chirichudanjoo nin karivalakal veruthe nee pinangi ninnooo 
  b- 3-5---5---------------------------------
  e- ----3----3-3-3-5-----8---7-5-3--------
  
  Aaa nimisham….
  b- 8---12----------------------------------
  e- --------12---10----12-10---12-10-----

priyanimisham…..
b- 8-8—12---------------------------------
e- ---------12---10---12-10---12-10------

azhakeeee haa..aaa
 b- -----------------------------------------
 e- 5-7-10-------7-9-7---5-7-5----3------
                                                        (Sukhamanee nilaavu) 
   
  Ormmayile poo kkani kothumbu..ponthuzhayaal thuzhanjavalee 
   b- -----------------------------------------
   e- 5-7---5-7---7—7—5-7---5-7-----3---
  
Evide ninno en priya rahasyam pakuthedukkananjavane
     b- 3-5---5---------------------------------
  e- ----3----3-3-3-5-----8---7-5-3--------

Enikkuvenam eee …
     b- 8---12----------------------------------
     e- --------12---10----12-10---12-10-----

kanimanassu…
 b- 8-8—12---------------------------------
 e- ---------12---10---12-10---12-10------

 azhakeee..haaa..aaaï
 b- -----------------------------------------
 e- 5-7-10-------7-9-7---5-7-5----3------
                                                        (Sukhamanee nilaavu) 


pls post u r valuable comments...........

                             Tumbi vaa Tumbakudathil



Thumpi va thumpakkudathin

d- -----------------------7---------------
g- 7-------7----7—6--------------------
b- ---5-6----5---------------------------
e- ----------------------------------------

Thunjathayi oonjalidam
d - ---------------------------------------
g- 7---------7-------6-7-----------------
b- ---5—6-----5-------------------------
e- ----------------------------------------

Aakasha ponnalin ilakalil
g-  ---------------------7-6-7------------
b- 7-7—8-----5-6-5----------5---------
e- ----------------------------------------


Ayathil thotte varam
g- ----------------------------------------
b- 7-7—8-----5-8-----6-5-5-----------
e- ----------------------------------------

La..la..la..la..la..

                                                    (thumpi)

manthrathal paayunna kuthiraye
g- ---------------------------------------
b- 8-8-----8--------8-7-5--------------
e-  ------5---5-8-5----------------------

manikya kayyal thodam
g- ---------------------------------------
b- 8-8----8-----------------------------
e-  -----5----5-8-5---------------------

gandharvvan padunna mathilakam
g- ---------------------------------------
b- 8-------8-----------------------------
e- ---5-8-----58---8-9----9-10--------

mandharam poovitta thanalil
g- ----------------------------------------
b- 8-------8------------------------------
e- ---5-8-----5-8-------10--------------

oonjaale padaamoo
g- ----------------------------------------
b- ----------------------------------------
e- 7-8-----10-----7-8-----11-----------
manathe mamante thalikayil
g- -----------------------------------------
b- ---------------------------------10-9--
e- 9—10----8----7-8-7------6-5--------

maamunnan pokaamo namukkini
g- -----------------------9-----------------
b---------7-8----8-7-5--------------------
e- 5-6-5------5----------------------------
                                                    (thumpi)




                                  Kizhakku Pookkum (Anwar)





Kizhaku pookum murikinentoru

b- 9-10-10—10—12-10---9-9-9-9-9----7--
e- ------------------------------------------------
chokachokapane
b- 9-10-10-10--12-10—9---------------------
e- -------------------------------------------------

putukapennin kavilinentoru
b- 9-10-10—10—12-10---9-9-9-9-9----7--
e- ------------------------------------------------
tudutudupane
b- 9-10-10-10—14-12—9--------------------
e- ------------------------------------------------
enik nenjin karikkumayi parannu vanoru maran
e- -----------------------------------------------------------------------
b- 9-9-10—9—7—3-3-5—5-5—5-9-7--9-12-12--13-12-10---

tudikum kannin kanavumayi piranu vanoru tozhan
e- -----------------------------------------------------------------------
b- 9-9-10—9—7—3-3-5—5-5—5-9-7--9-12-12--13-12-10---

                                                                                        (Kizhakku pookum)



          Vandhanam Theme In Accoustic Guitar


Laa laaa la la laaaaaa…..
g- ----------------------------
b- 5----7---8-7-----57------
e- ----------------------------

Laa laaa la la laaaaaa…..

g- ----------------------------
b- 5----7---8-7-----57------
e- ----------------------------

La la laaa  laaa aa aa…..

g- ------7---5----5-8---------
b- 8-6-----------------5---5---
e- ------------------------------

Laa laa aa aa aaaaaa…….
g- ------------------------------------
b-5—4-------------------------------
e- -------7-7---5---7---3—3-5-2---

Laaa laaa la laaaa aaa…..
g- -----------------------------------
b- -----------------------------------
e- -5—5-----3----------------------

This Tabs Preapared by My own style so hope all will enjoy th Tab.....



Enikk Paadanoru Paattilundoru Pennu(Film-Ivar Vivaahitharaayaal)






g- 9-8-9--------------------------9-8-9-----------------
b- --------8-8-8-8----7-8---7-----------7--------------
e- ---------------------------------------------------------


g- 9---------------------------------------------------------
b- ---8-10----------10-------------------10-9-10-------
e- -----------7-7-7--------7-10---8-7-------------------

g- -----------------------------------------------------------
b- 10----10-8----8-10-----8—7—7—7-8---7-8-----
e-  ----7-------------------------------------------------9--






                            Nee madhu pakaroo 

“Nee madhu pakaroo”, song from the movie “Moodal Manju” directed by Sudhin Menon. P Bhaskaran wrote the lyrics and Usha Khanna composed the music. She composed so many songs in Hindi, and all were great hits. This song sung by her favorite singer Dr. KJ Yesudas. 




Nee madhu pakaroo..malar choriyoo

g- --7-7-------9---7-7------9---
b- 7----7-7-------------7-7-----
e- --------------------------------

Anuraaga pournamiye
g- 9-9---9----------9-------------
b- ---------10-8-7----7-8-7------
e- ----------------------------------

Nee maayalle....marayalle.... neela nilaavoliye
g- ---------------------------------------------9-8-7--
b- 10------------10-10-10-10-----8-8-8-8----------
e-  ---11-11-11----------------------------------------
                                             (Nee Madhu pakaruu)
Manivilakkuvenda 
g-  -----------------------------------
b- 8-7----8--------------------------
e-  ----------10-10-10--------------

mukil kaanenda
g- --------------------------------
b- 8-7-8--------------------------
e- -------10-10---12—9--------

ee prema sallapam
g- --------------------------------------------------
b- 7-8—10----------------------------------------
e- ----------10---9-7---10---9-7---7-10-7-10—

First BGM


g- -----9---------------9---------
b- 8-----8-7-----8-8-----8-7---
e- ---------------------------------

d- --------------7-9---------------
g- -------9-7-6------6—9—7---
b- 10-7----------------------------
e- ----------------------------------

Manivilakkuvenda mukil kaanenda
g- --------------------------------------------------------
b- --------------------------------------------------------
e- 10—9---7-10-10-10---10-9—7-7---10-10-10---




ee prema sallapam
g- -----------------------------------------------
b- -----------------------------------------------
e- 10-9—7—10-10—9-9—12-12—9------

Kali paranjirikke kili thudangiyallo
sallapa sangeetham

g- -----------------------------------------------
b- ---------10------------------10-10----------
e- 9-9---7-----9-9-9---9---7---------9-9-9---


Iru karalukalil virunnu vannu
maayatha madhumaasam

g- --------------------------------------------
b- ----------------------10----10—8—7---
e- 9---7-7—10—9-7-----7----------------
                             

Nee maayalle....marayalle.... neela nilaavoliye
g- ---------------------------------------------9-8-7--
b- 10------------10-10-10-10-----8-8-8-8----------
e-  ---11-11-11----------------------------------------



Guitar chords for Nostalgia (Mix of Mandara Cheppundo, Pachakarikaya Thattil, Allimalar Kaavil and Chinkara Kinnaram) performed by Thaikkudam Bridge in Music Mojo (Kappa TV).


Intro tabs

Strum the full chord Em and pluck the last 2 strings. Next, pluck the 4th string holding Asus2 (A chord with 2nd string open) and then pluck the 2nd and 3rd strings.


Em           Asus2    Em           Asus2

-0--0------------0--0-----------|
-0----0----0-----0----0-----0---|   
-0-----------2---0------------2-|   
-2-------2-------2-------2------|
-2---------------2--------------|
-0---------------0--------------|


Mandara Cheppundo

Em          Asus2 
Mandara Cheppundo

Em          Asus2  
Manikka Kallundo

G                     D 
Kayil Vaarmathiye

Em                                             D 
Ponnum thennum vayambum undo

Em                                       D  
Vaanambaadithan thoovalundo
D                      Bm                       C                  
Ullil aamodha thirakal uyarumbo mounam paadunnu       x2 times
—–
Pachakkarikkaaya Thattil
Em 
Pachakkarikkaaya Thattil
Em                            Bm 
Oru muthassi potato cholli
Em          D               C               Em
Kunjole kumpaalee maamundu chanchaadoo            x2 times
A                                                 Em
Vellarippinchu polum chumma kallakkanneerozhukki
Bm                                      Em       Bm           G
Thakkaaleem pappaaleem achinga muchinga peechingayodoppam
Bm                  Em 
Picha nadannu cholli
Em          D               C               Em
Kunjole kumpaalee maamundu chanchaadoo
—–
Allimalar Kaavil
Em                       Bm
Allimalar kaavil pooram kaanaan
Em                          Bm 
Annu nammal poyi raavil nilaavil
A                                           Em 
Dhooreyoraalmara chottilirunnu
A                                            Em
Maarivil gopura maalika theerthu
A               G         Bm   Em
Athil naamonnaay aadi paadee
—–
Chinkara Kinnaram
Em                           D                           C                      Em
Chinkara kinnaram chirichukonchunna manikurunney vaa
Em                   Em 
Punnaram……punnaram….
Em                           D                           C                      Em
Kurumburanjumi kurunnu chundathey manipathakkam tha
Em                   Em  
Ammanam…..ammanam….
Bm                             Bm 
Kunjikulirambiliye…chellacherukumbilile
Em                      D                         C                      Em
Mamamamundu minnaram kandu minnaminniyayi vaa
Em                Em   
Vavavo…….vavavo…
Em                           D                           C                      Em
Chinkara kinnaram chirichukonchunna manikurunney vaa
Em                   Em  
Punnaram……punnaram….
Now let the madness begin…! :D
Chords of final jam portion:
Em / Dsus2 / A / C





Oru kari mukilinu.......



Intro
----------0--------------0---|
-----------------------------|   
---2--1---------2--1---------|   
-------------0---------------|
-----------------------------|
-2------2-------------0------|
Continue intro tabs..
Oru Kari mukilinu Chirakukalaruliya minnale
Puthumazha malarukal vithariya Kuru mozhi thennale
Start strumming DD U DD
F#m         C#m
Veyilil nizhalupol
D                  E
Marayum maayayai
F#m          C#m
Viralaal shilayilum
Bm                       E
Kulirezhum uravakalezhuthi
                           A
Ithuvazhi akalumaaro
    D             Bm             E
Avanetho maaya jaalam
A                 D
Aaro avanaaro
Bm                E
Kaanum swapnam
Continue intro tabs..
Oru Kari mukilinu Chirakukalaruliya minnale
Puthumazha malarukal vithariya Kuru mozhi thennale
—————
F#m                D       F#m              C#m
Maayamaareejam neelaponmaano
F#m                D
Doore paayaanaayi
Bm                              E
Kaato chumadukal ivaneki
G                     D
Aakaikalaal vinveedhiyil
C#                       E
Thoovum ven praavaayi
G                          D
Kaanal jalam pol thennumee
C#               E
Kunjin sankalppam
Repeat above chords..
A              D
Aaaro  avanetho
Bm             E
Maaya jaalam
A                 D
Aaro avanaaro
Bm                E
Kaanum swapnam
Oru kari mukilinu..
Bhoothakannadi roopangal thedi..
Naalam neetaanayi
Konil anujaya manideepam
Mekghaambaram kathorkkumee
Nin pon koodaaram
Kankettumetho mantramaayi
Ninnu ven thaaram
Aaro avanetho, maaya jaalam
Aaro avanaaro kaanum swapnam
Oru kari mukilinu..








No comments:

Post a Comment