Search This Blog

Loading...

Tamil Guitar Tabs and Chords

THERI MOVIE GUITAR CHORDS - AKMUSICALS

Scale: G Minor
Time Signature: 3/4
Tempo: 180
Suggested Strumming: DU,DU,DU
 
[INTRO] Gm D Gm D x2
[INSTRUMENTAL] Cm F Cm F Cm F Eb Gm x2
[CHORUS]
Gm         D      Bb       D
Unnale Ennaalum En Jeevan Vaazhuthey
Gm          D         Bb        D
Sollamal Un Swasam En Moochil Seruthey
   D             Gm
Un Kaigal Korkum Or Nodi
    D           Gm
Un Kangal Oram Neer Thuli
    Cm     Dm       Cm   Dm   Gm D Eb Dm Cm Dm Gm
Un Marbil Saainthu Saaga Thonuthey Oh.. Oh.. Ho..



Gm         D      Bb       D
Unnale Ennaalum En Jeevan Vaazhuthey
Gm          D         Bb        D
Sollamal Un Swasam En Moochil Seruthey

Bb 
Ubaya Kushala Chira Jeevana
Bb
Prasuta Tharitha Manjulathara
F
Singaare Sanjaare
 
[INSTRUMENTAL] Gm Cm Bb x2

[VERSE]
Gm                  D
Vidinthaalum Vaanam Irul Poosa Vendum
Eb                  D
Madi Meethu Saainthu Kathai Pesa Vendum
Gm                  D
Mudiyaatha Paarvai Nee Veesa Vendum
Eb                  D
Muzhu Nera En Mel Un Vaasam Vendum
Cm    Gm
Inbam Ethuvarai
       Cm     Gm
Naam Povoam Athuvarai
     Cm      Bb    F      Gm        D   Eb Dm Cm Dm Gm
Nee Paarka Paarka Kaathal Kooduthey.. Oh.. Oh.. Ho..

[CHORUS]
Gm         D      Bb       D
Unnale Ennaalum En Jeevan Vaazhuthey
Gm          D         Bb        D
Sollamal Un Swasam En Moochil Seruthey

[INSTRUMENTAL] Gm Eb Bb D x2
[INSTRUMENTAL] Cm Bb Cm Dm x2

[VERSE]
Gm            D
Aeraamal Aasai En Nejil Thondrum
Eb                D 
Athai Yaavum Pesa Pala Nenmam Vendum
   Gm           D
AeAezhu Jenmam Ondraga Sernthu
Eb              D
Unnodu Indre Naan Vaazha Vendum
Cm      Gm
Kaalam Mudiyalam
      Cm         Gm
Nam Kaathal Mudiyuma?
       Cm     Bb   F            Gm D  Eb Dm Cm Dm Gm
Nee Paarka Paarka Kaathal Kooduthey.. Oh.. Oh.. Ho..

[CHORUS]
Gm         D      Bb       D
Unnale Ennaalum En Jeevan Vaazhuthey
Gm          D         Bb        D
Sollamal Un Swasam En Moochil Seruthey
   D             Gm
Un Kaigal Korkum Or Nodi
    D           Gm
Un Kangal Oram Neer Thuli
    Cm     Dm       Cm   Dm   Gm D Eb Dm Cm Dm Gm
Un Marbil Saainthu Saaga Thonuthey Oh.. Oh.. Ho..

Gm         D      Bb       D
Unnale Ennaalum En Jeevan Vaazhuthey
Gm          D         Bb        D
Sollamal Un Swasam En Moochil Seruthey









                                   Song: Innum Konjam Neram
        Album: Maryan
                                              Singers: Vijay Prakash, Shwetha Mohan
   Music Director: A R Rahman

Chords -

C 0
1
0
2
3
0

F
0
1
2
3
0
0
G
3
0
0
0
2
3
and then Am (regular fingering)
Intro Tabs
C                                        F
-------------------------------------------|
-----1/0----1/0----------1/0--------0-1----|   
---0------------0/2----2------2-0-2--------|    x2 times
-2-------------------3---------------------|
-------------------------------------------|
-------------------------------------------|

C                                                                F
Innum Konjam Neram Iruntha Thaan Enna
F                                                              C
Aen Avasaram Enna Avasaram Nillu Ponne
C
Innum Pesa Kooda Thodangala
Am
En Nenjamum Konjamum Nerayala
G
Ipa Enna Vittu Pogatha
F
Enna Vittu Pogatha
C
Innum Pesa Kooda Thodangala
Am
En Nenjamum Konjamum Nerayala
G
Ipa Mazha Pola Nee Vanthaa
F
Kadal Pola Naan Niraivaen
Innum Konjam Neram…
———
C
Ithuvaraikkum Thaniyaaga En Manasa Alaiyavitta
F                   C
Alaiyavitta.. Alaiyavittaaye..
C
Ethirpaara Nerathula Ithayathula Valayavitta
F                    C
Valayavitta.. Valayavittaaye..
C                                             Am
Nee Vanthu Vanthu Poyen Antha Alaigala Pola
G                                                     F
Vantha Un Kaiyula Maatikuven Valayala Pola
C                                                   Am
Un Kannuketha Azhaga Varen Kaathirudaa Konjam
G                                                 F
Unna Ippadiye Thanthaalum Thithikume Nenjam
Innum Konjam…
Repeat the chords..























Song: Nenjukkul Peidhidum
Movie: Vaaranam Aayiram
Singers: Hariharan, Devan Ekambaram, Prasanna
Music: Harris Jayaraj


Intro Tabs
E---------------------------------------|
B-------------------------------5--5----|   
G--4--6--7--9--7/9--6--4----------------|
D-------------------------7--7----------|
A---------------------------------------|
E---------------------------------------|

E------------------------------------------|
B------------------------------------------|   
G--4--6--7--9--7/9--6--4-----------6--4----|
D-------------------------7--7--7----------|
A------------------------------------------|
E------------------------------------------|


Hold A chord and do one up stroke.

Then start strumming [A chord]D UDUD [Asus2 chord]UDUDDU     x2 Times

A
Nenjukkul Peithidum Maa Mazhai
F#m                                     E
Neerukul Moozhgidum Thaamarai
C#m                                Asus4
Sattendru Maaruthu Vaanilai
E
Penne Un Mael Pizhai..

A
Nillamal Veesidum Peralai
F#m                                      E
Nenjukkul Neenthidum Tharagai
C#m                                    Asus4
Pon Vannam Soodiya Kaarigai
E
Penne Nee Kaanchanai

Break down the following chords with the strumming like this:
[Bm]D UDUD [A]D UDUD [E]D UDUD UDUD
Bm               A             E
Oh Shaanti Shaanti Oh Shaanti
Bm               A                  E
En Uyirai Uyirai Nee Aenthi..
Bm                     A                        E
Aen Sendrai Sendrai Ennai Thaandi
Bm                     A              E
Ini Neethan Enthan Anthathi..

Nenjukkul..

———————
A                         D        E
Aetho Ondru Ennai Eerka
F#m                         D           E
Mookin Nuni Marmam Saerka
A                            D         E
Kallaththanam Aethum Illaa
F#m                    D        E
Punnagaiyo Boganvillaa

A                                                  E
Nee Nindra Idam Endraal Vilai Aeri Pogaatho
A                                                E
Nee Sellum Vazhi Ellam Panikatti Aahaatho
G                       A
Ennodu Vaa Veedu Varaikkum
G                           A
En Veetai Paar Ennai Pidikkum

Bm                 A             E
Ival Yaaro Yaaro Theriyathey
Bm                   A           E
Ival Pinnal Nenje Pogathey
Bm                 A              C#m
Ithu Poiyo Meiyo Theriyathey
Bm                 A            E
Ival Pinnal Nenje Pogathey.. Pogathey..

Nenjukkul..

Thookangalai Thooki Sendrai
Aekkangalai Thoovi Sendrai
Unnai Thaandi Pogum Podhu
Veesum Kaatrin Veechu Veru
Nil Endru Nee Sonnal En Kaalam Nagarathey
Nee Soodum Poovellam Oru Pothum Uthirathey
Kaathal Enai Kaetka Villai
Kaettaal Athu Kaathal Illai
En Jeevan Jeevan Neethanae
Ena Thoandrum Neram Ithuthane
Nee Illai Illai Endralae
En Nenjam Nenjam Thaangathey..












Bombay Uyire Uyire Guitar Tab By Akhil c nair

uyirae uyirae .. vandhu ennoadu kalandhuvidu

e-7-7-9—7-7-9—7-9—10-12—10—9—7-7-7-5-4--
b- -----------------------------------------------------------
uyirae uyirae ennai unnoadu kalandhuvidu
e-7-7-9—7-7-9—7-9—10-12—10—9—7-7-7-5-4--
b- -----------------------------------------------------------
ninaivae ninaivae endhan nenjoadu kalandhuvidu

e -4-7--5--7-7—5-4-0-0—2-5—5-5—7-5-4-2-0-
b – ------------------------------------------------------

nilavae nilavae indha vinnoadu kalandhuvidu
e -4-7--5--7-7—5-4-0-0—2-5—5-5—7-5-4-2-0-
b – ------------------------------------------------------

kaadhal irundhaal endhan kannoadu kalandhuvidu
e-12-10—12---12-10—12-9-9-9—9-10-12-14-12-9-7-7-7-
b- ------------------------------------------------------------------
kaalam thaduththaal ennai mannoadu kalandhuvidu
e-12-10—12---12-10—12-9-9-9—9-10-12-14-12-9-7-7-7-
b- ------------------------------------------------------------------ [Uyire]

en suvaasak kaatru varumpaadhai paarththu uyirthaangi naaniruppaen
e-5-5-7---12-10-7—5—7-7---5-7-0---5-7—12-10—7-7-7----
b - ---------------------------------------------------------------------

malarkonda penmai vaaradhu poanaal malaimeedhu theekkulippaen
e-5-5-7---12-10-7—5—7-7---5-7-0---5-7—12-10—7-7-7----
b - ---------------------------------------------------------------------

en uyir poagum poanaalum thuyarillai pennae adharkaagavaa paadinaen
e-7-8—8---14-14—12-14-14—12-14-14---14-12-8-7—7-8—12-14-17—16-14-14-
b- -------------------------------------------------------------------------------------------------

varum edhirkaalam un meedhu pazhipoadum pennae adharkaagaththaan vaadinaen
e-7-8—8---14-14—12-14-14—12-14-14---14-12-8-7—7-8—12-14-17—16-14-14-
b- -------------------------------------------------------------------------------------------------
mudhalaa mudivaa adhai un kaiyil koduththuvittaen
e-12-12---9---12-12---8---5-5—5—7-12—8-7-5-4-2-
b- ------------------------------------------------------------ [Uyire]
Repeat Again…This is the tab for the song Uyire Uyire….
I hope all will enjoy….please post u r valuable comments….follow me on my blogger




Etho oru paattu - unnidathil ennai koduthen


g- 12--------------12---------------12-----------12-10-
b- ----11—10-11----11---10-11-----11—10---------
e- ----------------------------------------------------------

g- 10---12---10---12----10------------------12-12----------
b- ---10---10---10---10-----11—10-11-10--------11------
e- ----------------------------------------------------------10—

g- 12-12--------------------------10-10-------------------------
b- -------10-----13-13-13---13--------10-13-13-11-11-11--
e- ----------9-9---------------------------------------------------

g- 12-12--------------------------10-10-----------------------------12-10--
b- -------10-----13-13-13---13--------10-13-13-11-11-11-10-----------
e- ------------9-9---------------------------------------------------------------

g- 10-12--------12-12-12-----12------10-12---------12-12-12—11-----
b- -------11-10-------------10-----10----------11-10------------------10--
e- -------------------------------------------------------------------------------


Movie Name : Deepavali
Song: Pogadhe
Music Director : Yuvan Shankar Raja


Pogathe Pogathe… nee irundhal nan iruppen…
E C#m B E

pogathe pogathe… nee pirindhal nan erappen
E C#m B E

unnodu vazhndha kalangal yaavum kanavai ennai moodudhadi..
C#m C#m F#m Ab C#m

yaarendru neeyum ennai paarkumbothu…uyire uyir pogudhadi…
C#m C#m F#m Ab C#m

kallarail kooda jannal ondru vaithu.. undhan mugam paarpenadi… (Pogathe)…
F#m Abm A B

Pogadhe.......

Pogadhe.......

Kalaindhalum megam athu meendum midhakkum…
E Eb Abm

adhu pola thane undhan kadhal enakkum…
E Eb Abm

nadaipadhai vilakka kadhal, vidindha udan anaipadharku..
E C#m Abm E

neruppalum mudiyadhamma ninaivugalai azhipadharku..
E C#m Abm E

unakkaga kathiruppen.. oh oh.. uirodu parthiruppen… oh oh (Pogathe)
E Abm C#m E Abm C#m

azhagana neram adhai nee than koduthai..
E Eb Abm

azhiyadha sogam adhaiyum nee than koduthai..
E Eb Abm

kan thoongum neram parthu kadavul vandhu ponadhu pol..
E C#m Abm E

en vazhvil vandhe ponai… yematram thangalaye…
E C#m Abm E

penne nee illamal… boologam iruttidhthe.. (Pogathe)
E Abm C#m E Abm C#m


                      Hossanna(Vinaithaandi Varuvaayaa)

Yen idhayam 

g- -------------------------------------------
b- -------------------------------------------
e- 910-10-10-10--9-12---10--10--10--10--

udaithaai norungavey
g- -------------------------------------------
b- -------------------------------------------
e-7-9-10--5-3--5-7--9----------------------


en maruidhayam tharuven nee udaikave

g- ----------------------------------------
b- ----------------------------------------
e- 9--10-10-10---9-12--14-12-----10---


 tharuven nee udaikave

g- ----------------------------------------
b- ----------------5----------------------
e- 9-7---5--3-2-3-----------------------


Hoooo .... hosanna hosanna

b- ------------------------------------------------------------------------
e- 10-12-10---8-8-8--5-3--5-8--8-8-----5-3-5--8-8-8---5-3-3--

Hoooo .... hosanna hosanna

b- ------------------------------------------------------------------------
e- 10-12-10---8-8-8--5-3--5-8--8-8-----5-3-5--8-8-8---5-3-3--


Andha neram andhi neram kanpaarthu kanhdalagi ponaneram edho aache

b- -----------------------------------------------------
e- 710-10-7-555-333-5--7--10--7-7-7-10-----

Oh vaanam thendi vanhdachu appavin thittuellam kaatrodu poye poche

b- -------------------------------------------------
e- 710-10-7-555-333-5-7--10--7-9-7--5---


Hosanna en vaasal thandi ponaale

b- --------------------------------------------------
e- 3-5-3------3-5-3------------------7-----------


Hosanna verondrum seiyamale

b- ----------------------------------------------------
e- 3-5-5------5-7-5------------------3-------------




nan aadi pogriren
sookunoorakiren
aval pona pinbu endhan nejai thedipogiren

b- -------------------------------------------------
e- 7-3--7-3--75-75-75-75-75-75-75---10--

Ho ...sanna ...

b- --------------------------
e- 3--5--7-----------------


Vazhvukum pakkam vandhen
b- -------------------------
e - 33-5-7-5-77--------

savumkum pakkam nindren 


b- -----------------------------
e- 3-5-7--7-5-7--3----------
-

                                    Kaadhal Rojaave



g- 9--------9---8---------
b- ----8—7—7----------
e- -------------------------
                                [Repeat]
g- 9---9--------------------
b- ---9—9---10----------8---7---
e- -----------------8-7------

g- -------------------------------
b- ----9-9----10—8-7---
e- --------------------------------

g- ---------------------------------
b- 9-9---10------8—7-----------
e- -----------8-7------------------

g- 9-----------------------------------------
b- --7-8-7---10----------------------------
e- -----------------7-8-7---710---1012---

g- --------------------------------------------------
b- 9-9-9-9----7-10-9----9-9---10---------------
e- -------------------------------------7—8-7-7—

g- -------------------------------------------------------
b- 9-10-----------------------------------------10-10--
e- ------7---12—12—7-7—7-9-10—9—7---------

g- ---------------------------------------------------
b- 9-9---10-----8—7-7----------------------------
e- ------------7--------------------------------------
          (am plyd the song using this tab just click to listn http://www.muziboo.com/akkz/music/kaadhal-roja-in-accoustic-guitar-by-akhil-c-nair/)







                       Mendal Manadhil

Chords for the Male Version.

(F#m)Mana mana mana (Bm)mental manadhil
(F#m)Laka laka laka (Bm)pollaa vayadhil
(D)Taka taka taka (A)kottum isaiyil
(E)ok en (D)kalmani madiyil

(F#m)Mana mana mana (Bm)mental manadil
(F#m)Laka laka laka (Bm)pollaa vayadhil
(D)Taka taka taka (A)kottum isaiyil
(E)Ok en (D)kanmani madiyil

(No chords)Nettru enbadhu indru illai
Naalai ninaippae oh thollai
Like-a like my laila laila
Indru mattum king and queen aa

(D)Like-a like my (Bm)laila
(D)Like-a like your laila
Like-a like my laila

(D)Kannaale killaadhae
(E)Seendaamal sellaadhae
(D)Thottaale thullaadhae
(E)Vittaalum (A)pogaadhae